Би-2 - Серебро, аккорды

Прокрутка
Тональность
Шрифт
100
1 куплет:
            Am   F	
  "Я не вернусь" -
 Dm        Em	  Am  
  Так говорил когда-то,
       F  Dm       Em     Am
  И туман  глотал мои слова
           F          Dm  Em
  И превращал их в воду.
           Am   F             
  Я все отдам  
 Dm         Em      Am
  За продолжение пути,
           F   Dm         Em        Am   F Dm Em 
  Оставлю позади свою беспечную свободу.


Припев:
 Dm7      E7             Am   
  Не потерять бы в серебре
        F
  Ее одну - 
     Dm  Em 
  Заветную.


Проигрыш 1:

  e--7-12-7-8--8-12-5---13-13-13-12-10-8-7-8--8-12-5-
 
  e--13-13-13-12-0-10-7-8--8-12-5---13-13-13-12-10-8-7-8--8-12-5-

  e--13-13-13-12-

            Не по себе  
 И далее: e--0-10-7-Am    (т.е. не - 0, по - 10, се - 7, бе-Am)



2 куплет:
           Am  F
  Не по себе
 Dm        Em        Am    F  
  От этой тихой и чужой зимы,
 Dm         Em     Am  
  С которой я на "ты" -
              F          Dm Em
  Нам не стерпеть друг друга.
           Am  F
  И до войны
 Dm          Em          Am  
  Мне не добраться никогда,
         F          Dm         Em     Am    F Dm Em
  Моя безумная звезда ведет меня по кругу



Припев.

Проигрыш 2:

   e--5-7-8-7-5^7^5-----------------------
   h----------------6-----5-6-8-6-5^6^5---
   g------------------------------------7-

   e--10--12-----15-13--12^13^12--10----
   h--------------------------------------
   g--------------------------------------

   e--5~10-10---12---3~5-5--7-----8-8-8--
   h--------------------------------------
   g---------------------0----------------

   e--15-13--12^13^12--10------------------
   h---------------------------------------
   g---------------------------------------

   e--10~19-19-19-19-19-19-17---8~12-12-12-13-12-10-
   h------------------------------------------------
   g------------------------------------------------

   e--5~10-10-10--12--3~5-5-5--7-
   h-----------------------------
   g-----------------------------


3 куплет:
           Am    F
  А в облаках 
 Dm         Em           Am       F
  Застыл луны неверный свет, и в нем
 Dm      Em         Am   F 
  Перемешались города, и я
 Dm     Em    Am   F Dm Em 
  Зову ее несмело.


Припев.

Окончание:

  e--7-12-7-8--8-12-5---13-13-13-12-10-8-7-8--8-12-5-
 
  e--13-13-13-12-0-10-7-8--8-12-5---13-13-13-12-10-8-7-8--8-12-5-

  e--13-13-13-12-0-10-7-8--8-12-5---13-13-13-12-10-8-7-8--8-12-5-

  e--13-13-13-12-0-10-7-8--8-12-5---13-13-13-12-10-8-7-8--8-12-5- 

  (и возможно еще несколько раз)
 
 
Свернуть Распечатать