Би-2 - Варвара, аккорды

Прокрутка
Тональность
Шрифт
100
Бас:

   Gm            Eb            Cm           F
A|-------------|-6-6-------6-|-3-3-------3|-------------|
E|-3-3-------3-|-------------|------------|-1-1-------1-|

Вступление гитары:
  
G|-3/5/3--3/5-7--5--3-5-3-2--|-3/5/3--3/5-7--5----8---2--|
D|-5/7/5--5/7----------------|-5/7/5--5/7----------------|

Gm       Eb      Cm      F         Gm   Eb Cm F
   Как грустно и очень обычно все вышло,
   Ушла от меня и в ночь теперь слезно кричу,
   Мне просто обидно шаги одиночества слышать,
   И страшно подумать, и вряд ли я жизнь доживу

	 Gm     Eb Cm F
	Варвара         > 4 раза

	Проигрыш в припеве:
	e|--6---6--8---8----3---5---5-|
	H|----8-------------------6---|
	G|-----------8---5----5-------|

Gm      Eb     Cm         F             Gm  Eb Cm F
   С тобой я готов был бежать на край света,
Gm    Am      B     Cm       D
   Но ты изменила сама ты туда удрала.
Gm     Eb        Cm       F        Gm       Eb  Cm F
   Порвалась струна, и теперь моя песенка спета
   И жизни мне нет... Вот такие дела.

	Припев

Проигрыш на басу:

G|-------7-8---|------------|------------|-----7-8-|--5--5-------------|
D|-------------|------------|------------|---------|-------------------|
A|-------------|-3--5-6-5-3-|------------|---------|-3--3---30---------|
E|--3-3--------|------------|--111--222--|-3-3-----|-----------111-222-|

G|-------7-8---|--5--5------|--------7-8-|---------|-------------------|
D|-------------|------------|------------|---------|-------------------|
A|-------------|-3--3--30---|------------|-5-------|-------------------|
E|--3-3--------|----------1-|-11-2-3-----|---------|-------------------|

   Когда-то был счастлив, а счастье так и ушло,
   За счастьем несчастье, так грустно, вот так и пошло
   И ждать на крылечке уже бесполезно тебя,
   Ох, как далеко, далеко, далеко от меня ты.

	Припев

	 Gm       Eb         Cm  F
	Варвара, ага, угу...       но где ты? > 10 раз
 
 
Свернуть Распечатать

Аппликатуры аккордов

Аккорд Gm Аккорд Eb Аккорд Cm Аккорд F Аккорд Am Аккорд D
zenonas zenonas
автор подбора аккордов
5,002 11 18.10.2006

Видео