Chimaira - Army Of Me, аккорды

Прокрутка
Тональность
Шрифт
100
Drop c tuning  (low to high CDCFAD)

I'm not going to take credit for this one, the other guys tab was correct(except for a 
minor errors.) he just had the tab written upside down.

If you find any errors, e-mail me at the_redbaron_13@yahoo.com


h-hammer on
p-pull off
.-palm mute
/-slide down
-slide up
x-mute
~-vibrato
ph-pinch harmonic
b-bend
^-dip whammy bar
*-see comment


D--------------------------------|
A--------------------------------|
F--------------------------------| 3x
C------5p4---*/9p8----12h11------|
G---3h4---4h5-----9h10-----------|
C--------------------------------|

D-----------------------------------------------|
A-----------------------------------------------|
F------5p4---*/9p8----12p11h12p11h12p11h12/-----|
C---3h4---4h5-----9h10--------------------------|
G-----------------------------------------------|
C-----------------------------------------------|

{* when i first saw something like this i thought there was an error in the tab, i was 
where the hell do you slide from, if you're an idiot like me, just so you know you slide 
the first fret.}

D--------------------------------------------------|
A--------------------------------------------------|
F--------------------------------------------------|
C--------------------3p2---------------------------|
G-000000-1-0-1-000000---3p0-2p1p0------------------|
C-000000-1-0-1-000000------------3p2h3p2p0---------|
  ......   .   ......

Chorus

D-1p0-1p0-1p0-1p0-4p3-4p3-4p3-4p3-----------------|
A-1p0-1p0-1p0-1p0-4p3-4p3-4p3-4p3-----------------|
F-1p0-1p0-1p0-1p0-4p3-4p3-4p3-4p3-----------------|
C-------------------------------------------------|
G-------------------------------------------------|
C-------------------------------------------------|

D-------------------------------------------------|
A-------------------------------------------------|
F-5/4-5/4-5/4-8/7-8/7-8/7-------------------------|
C-x/x-x/x-x/x-x/x-x/x-x/x-------------------------|
G-3/2-3/2-3/2-6/5-6/5-6/5-------------------------|
C-------------------------------------------------|


  . . . . . . . . . . . . . . . . . . . .
D-1p0-1p0-1p0-1p0-1p0-1p0-1-1-1-1-0-0-0-0-------|
A-1p0-1p0-1p0-1p0-1p0-1p0-1-1-1-1-0-0-0-0-------|
F-----------------------------------------------|
C-----------------------------------------------|
G-----------------------------------------------|
C-----------------------------------------------|

solo(the other guy wasn't sure if it was right, I'm not sure if it's right)

D-12p11p10-12p11p10-12p11p10-12p10h11p10h11------12/2113p12-13-|
A------------------------------------------11-10~---------------|
F---------------------------------------------------------------|
C---------------------------------------------------------------|
G---------------------------------------------------------------|
C---------------------------------------------------------------|

  tremolo pick this section
D-15^-15h16p13-15h16-----16h17-----17p18----------------------|
A-------------------17p16-----18p17-----19b~*-----------------|
F-------------------------------------------------------------|
C-------------------------------------------------------------|
G-------------------------------------------------------------|
C-------------------------------------------------------------|
*bend 19 and hold for a second then began vibrato

D-21p19-19p18-18p17-16p15-14p13-12p10-9p8-7p6-----------|
A-------------------------------------------------------|
F-------------------------------------------------------|
C-------------------------------------------------------|
G-------------------------------------------------------|
C-------------------------------------------------------|

D-----------------------------------------------------------------|
A-----------------------------------------------------------------|
F-----------------------------------------------------------------|
C-----------------------------------------------------------------|
G-----------------------------------------------------------------|
C-1p0-1p0-1p0-1p0-5--1p0-1p0-1p0-1p0-1p0-5--1p0-1p0-1p0-1p0-5-----|
  . . . . . . . . ph . . . . . . . . . . ph . . . . . . . . ph

play chorus

outro
D----------------------------------------------|
A----------------------------------------------|
F----------------------------------------------|
C----------------------------------------------|
G-3p2-2p0-0h2-3p2-2p0-0h2-3p2-2p0-0h2--00000---|
C--------------------------------------00000---|
                                       .....

D---------------------------------------------------------|
A---------------------------------------------------------|
F---------------------------------------------------------| repeat but only
C---------------------------------------------------------| ph 1st time
G-00-0-0-000-00-000-000-00-0-00000----00-0-00-000-00-00-0-|
C-00-0-0-000-00-000-000-00-0-00000-5--00-0-00-000-00-00-0-|
  .. . . ... .. ... ... .. . ..... ph .. . .. ... .. .. .
 
 
Свернуть Распечатать

Видео