ДДТ - Осенняя, аккорды

Прокрутка
Тональность
Шрифт
100
Вступление:
E|-1---3---0---5-|-1---3---0---5-|-1---3---0--------|

Перебор 1:
    F        G         E        Am
E|---------------------------------|
H|---------------------------------|
G|-----2-------0-------1-------2---|
D|---3---3---0---0---2---2---2---2-|
A|-------------------------0-------|
E|-1-------3-------0---------------|

E* (для последней строчки первого куплета)
E|--------0-|
H|----------|
G|------1---|
D|----2-----|
A|----------|
E|--0-------|

Перебор 2:
   F       G(III)  E       Am
E|---------------------------------|
H|---1-1-1---3-3-3---0-0-0---1-1-1-|
G|---2-2-2---4-4-4---1-1-1---2-2-2-|
D|---3-3-3---5-5-5---2-2-2---2-2-2-|
A|-------------------------0-------|
E|-1-------3-------0---------------|

     F       G      E        Am
Небеса на коне на осеннем параде
       F        G             E           Am
Месят тесто из тех, кто представлен к награде.
     F       G        E*
А по ящику врут о войне...

Я живу на весах в это качество года
Моя песня, конечно, дождливого рода.
     F         G       E     Am
Моя песня не спета
F      G    E  Am
И не одета.

Моя песня - ответ письмам Анны и Лизы;
Брызги ветра висят на промокших карнизах.
      F       G       E     Am
Собрала их губами весна
  F  G       E     Am
        И исчезла она.

Проигрыш:
   F       G       E       Am
E|---------------------------------|   \
H|-3-3-3-3-0-0-0-0-0-0-0-0-1-1-1-1-|   |
G|-2-2-2-2-0-0-0-0-1-1-1-1-2-2-2-2-|   | 3 раза
D|-3-3-3-3-0-0-0-0-2-2-2-2-2-2-2-2-|   |
A|---------------------------------|   |
E|---------------------------------|   /

   F       G       E       Am
E|---------------------------|
H|-3-3-3-3-0-0-0-0-0-0-0-0-1-|
G|-2-2-2-2-0-0-0-0-1-1-1-1-2-|
D|-3-3-3-3-0-0-0-0-2-2-2-2-2-|
A|---------------------------|
E|---------------------------|

Я с бедой на плечах доползу до дороги.
Умереть - ничего, если выпить немного.
      F      G       E     Am
Но мешает уйти от тебя
  F  G  E       Am
          Наше "Я".

Где опастности бред, там живые могилы.
Нас за верность их лет поднимают на вилы.
Этой осенью платим за свет.

Пляшем на виражах, повороты веками,
И никому нет конца, даже тем, кто не с нами.
Наша песня с тобой в облаках.

И пока ничего, ничего не случилось.
Я вчера еще помнил, что жизнь мне приснилась.
Этой осенью стала она...

Проигрыш: F | G | E | Am

И если вокруг - одно лихо,
И если кругом слишком тонко,
Люби всех нас, Господи, тихо,
Люби всех нас, Господи, громко.

Иногда наша жизнь зарастает цветами.
Это значит, мой друг, Он прошел между нами...
Но увидеть его нелегко.

И если вокруг - одно лихо,
И привычное нам слишком тонко,
Люби всех нас, Господи, тихо,
Люби всех нас, Господи, громко.
Люби всех нас, Господи, тихо,
 F         G    E
Люби всех нас, Господи...

Кода:
E|-----------------|-----------------|
H|--------1-0-1----|--------1-0-1----|
G|-2---------------|-2---------------|
D|-2---------------|-2---------------|
A|-0---------------|-0---------------|
E|-----------------|-----------------|

Комментарий автора:

Перебор 1: Практически во всех строчках по умолчанию
Перебор 2: Используется в куплетах \"И если вокруг...\"
 
 
Свернуть Распечатать