Led Zeppelin - Whole Lotta Love (ver 8), аккорды

Прокрутка
Тональность
Шрифт
100
Whole Lotta Love     Standard Tuning     Guitarzan Freak 
 
 I am 100% sure this is tab is complete and correct.
  Intro
E|--------------|---------------|---------------|---------------|
B|--------------|---------------|---------------|---------------|
G|--------------|---------------|---------------|---------------|   
D|---0----0-----|---------------|---------------|---------------|    
A|---5~---5~-7--|-7-7-7---7-7-7-|-7-7-7---7-7-7-|-7-7-7---7-7-7-|     
E|-7----7-----0-|-0-0-0---0-0-0-|-0-0-0---0-0-0-|-0-0-0---0-0-0-|

  Intro
E|--------------|---------------|---------------|---------------|
B|--------------|---------------|---------------|---------------|
G|--------------|---------------|---------------|---------------|   
D|---0----0-----|---------------|---------------|---------------|    
A|---5~---5~-7--|-7-7-7---7-7-7-|-7-7-7---7-7-7-|-7-7-7---7-7-7-|     
E|-7----7-----0-|-0-0-0---0-0-0-|-0-0-0---0-0-0-|-0-0-0---0-0-0-|

  Main Riff
E|------------|---------------|
B|------------|---------------|
G|------------|---------------|   
D|---0---0----|---------------| 
A|---5~--5~-7-|-7-7-7---7-7-7-|   
E|-7---7----0-|-0-0-0---0-0-0-| 
                                       
  Riff 1                           
E|-----------------|
B|-----------------|
G|-----------------| 
D|-0-0-0-0-0---9---|  
A|--------------7/-| 
E|-----------------|

  Main Riff
E|------------|---------------|
B|------------|---------------|
G|------------|---------------|   
D|---0---0----|---------------| 
A|---5~--5~-7-|-7-7-7---7-7-7-|   
E|-7---7----0-|-0-0-0---0-0-0-| 
                                       
  Riff 1                           
E|-----------------|
B|-----------------|
G|-----------------| 
D|-0-0-0-0-0---9---|  
A|--------------7/-| 
E|-----------------|
   During the interlude, Page scrapes his
   pick up and down the fret board.

  Solo
E|-----|--------12----------------------------|
B|-9-9-|-10/12-----15-12----------------------|
G|-9-9-|-----------------15p14p12-14p12-14b16-|
D|-9-9-|--------------------------------------|
A|-7-7-|--------------------------------------|
E|-----|--------------------------------------|

E|-----|---------------------------------|
B|-9-9-|---------------------------------|
G|-9-9-|-2/4—4p2-0-2p0-0-2p0-------------|
D|-9-9-|---------------------2p0-2p0-----|
A|-7-7-|-----------------------------2---|
E|-----|-------------------------------0-|

E|-----|---------12-10b12—12-15-10-12-|-----|-12-15b19r15-12-----15p12-|
B|-9-9-|-10-12-12---------------------|-9-9-|----------------14--------|
G|-9-9-|------------------------------|-9-9-|--------------------------|
D|-9-9-|------------------------------|-9-9-|--------------------------|
A|-7-7-|------------------------------|-7-7-|--------------------------|
E|-----|------------------------------|-----|--------------------------|

E|-----|---19b21-19-18-17-15----15----|-----|-------------------17-15--15---|
B|-9-9-|-17------------------17----17-|-9-9-|-17-19-19b21-19b21------17--17|
G|-9-9-|------------------------------|-9-9-|-------------------------------|
D|-9-9-|------------------------------|-9-9-|-------------------------------|
A|-7-7-|------------------------------|-7-7-|-------------------------------|
E|-----|------------------------------|-----|-------------------------------|
 
  Main Riff
E|------------|---------------|
B|------------|---------------|
G|------------|---------------|   
D|---0---0----|---------------| 
A|---5~--5~-7-|-7-7-7---7-7-7-|   
E|-7---7----0-|-0-0-0---0-0-0-| 
                                       
  Riff 1                           
E|-----------------|
B|-----------------|
G|-----------------| 
D|-0-0-0-0-0---9---|  
A|--------------7/-| 
E|-----------------|

 Chords
E|-----|                                       
B|-9---|
G|-9-6-|
D|-9-7-|
A|-7-7-|
E|---5-|

 Song Progression:
 Intro            x2
 Main Riff        x9
 Riff 1           x4
 Main Riff        x9
 Riff 1           x4
 Solo             x1                 
 Main Riff        x12
 Riff 1           x4
 Chords           x1
 Main Riff        x32
 
 
Свернуть Распечатать