Lumen - Государство, аккорды

Прокрутка
Тональность
Шрифт
100
Вступление:

   E5             A5              E5            A5
E|------------------------------|-------------------------------|
H|------------------------------|-------------------------------|
D|------------------------------|-------------------------------|
G|----------9-10--7-7---5-7--5--|---------9-10--7-7---5-7-5-7-5-|
A|-7---7-7----------------------|-7--7-7------------------------|
E|------------------------------|-------------------------------|
 
   E5             A5              E5            A5
 |------------------------------|-------------------------------|
 |------------------------------|-------------------------------|
 |------------------------------|--------------------9-7--------|
 |-8/9------9-10--7-7---5-7--5--|---------9-10--7--5-----9-7-5--|
 |-----7-7----------------------|-7--7-7------------------------|
 |------------------------------|-------------------------------|

    E5
Заплати налоги и живи спокойно
Но каждый рубль как покойник
На эти деньги люди сверху
Нас, всех остальных, превращают в перхоть
Они проводят невнятные реформы
Меняют гаишникам название и форму
Кидают стариков через одно место
Каждый день проверяя, из какого же мы теста!


	E5             D5     C5                      
	   Здесь типа демократия, на самом деле царство
	   Я так люблю свою страну... и ненавижу
	        E5           D5           C5
	   Государство, государство, государство! Я ненавижу 
	   Государство, государство, государство!

	   E5                         D5
	A|-7--7-5---7-5---7-5---7-5---5--| \
	E|--------8-----8-----8-----8----| / 4 раза

    E5
Заплати налоги и живи спокойно
На эти деньги продолжают войны
 C5 
Люди делят власть и нефть
    C5                   D5
Мы пешки в играх, мы не люди, нет!
   E5
Плати налоги, живи спокойно,
И похеру на то, живешь ли ты достойно!
       C5
Твое право - заткнуться, молчать!
Ты еще не понял!?
Гони бабки, твою мать!

	Припев

	Проигрыш = вступление

	Припев > 2 раза
 
 
Свернуть Распечатать

Аппликатуры аккордов

Аккорд E5 Аккорд A5 Аккорд D5 Аккорд C5
horvath horvath
автор подбора аккордов
1,097 1 30.11.1999