Lumen - Три пути, аккорды

Прокрутка
Тональность
Шрифт
100
Вступление:D#maj9 Gm9Б 

D#6       Cm          Gm          Dm           D#6
  Время за полночь,    и мне осталось три пути. 
D#6      Cm         Gm          F             D#6
  Не один ли бес,    куда ступать, зачем идти? 
 Опустились руки, поднялись корни. 
 Монету на удачу. Руку черт не дерни!

Первая дорога – сидеть. Ждать. Смирно. 
Быть каменно спокойным, быть абсолютно мирным, 
Только ветер знает, сколько нужно силы, 
Чтобы не слететь с катушек и ждать судьбы красиво!

Второй выбор мне – стряхнуть пыль, сорваться! 
Извините, мол, но не могу остаться! 
И лететь мчаться в неизбежность зимы, 
А как замерзнуть просто знают звери и мы!

Соло

А про третий путь не скажу ни слова. 
Он у каждого свой – раз и готово! 
О том, как все просто, знают телефона провода. 
Этот третий путь будет всем всегда-всегда!

Комментарий автора:

Соло: 
   
   D#6         Cm           Gm          Dm
e|---------------------------------------------------|
H|---------------------------------------------------|
G|-3--2---3--2-----5--3-2-3--2-----3--2---------2----|
D|------3-------3---------------3--------3--3-5---3--|

   C#6         Cm           Gm
e|---------------------------------------------------|
H|---------------------------------------------------|
G|-3--2---3--2-----5--3-2-3--2--3--5----7~~----------|
D|------3-------3------------------------------------|

   C#6           Cm            Gm          Dm
e|-6--5-----6--5------8--6-5-6--5-----6--5----------5----|
H|-------6--------6----------------6--------6--6--8---6--|
G|-------------------------------------------------------|

   C#6           Cm            Gm          
e|-6--5-----6--5------8--6-5-6--5--6----8----10~~--------|
H|-------6--------6--------------------------------------|
G|-------------------------------------------------------|
 
 
Свернуть Распечатать