Marilyn Manson - Sweet Dreams, аккорды

Прокрутка
Тональность
Шрифт
100
В начале и в куплетах идет:
E----------------------------------|
B----------------------------------|
G----------------------------------|
D-----5---6---5--------------------|
A-3-3---3---3---3-----6/8-----5/6--|
E-----------------4-4-----3-3------|
                                                                              
А это играется когда идет:
"Some of them want to abuse you..."
E-----|
B-----|
G-----|
D-----|
A-10--|
E--8--|
                                                                              
"Some -- of -- them -- want -- to -- be -- a-bused..."
E-------------------------------------------------|
B-------------------------------------------------|
G-------------------------------------------------|
D-------------------------------------------------|
A-10----------------------------------6--------5--|
E--8----------------------------------4--------3--|
                                                                              

припев:
E--------------------------------------------------|
B--------------------------------------------------|
G-------------------------------5-5-5-5-5-5-5-5-5--|
D-6-6-6-6-6-6-6-6-6-6-6-6-6-5-5-5-5-5-5-5-5-5-5-5--|
A-6-6-6-6-6-6-6-6-6-6-6-6-6-5-5-3-3-3-3-3-3-3-3-3--|
E-4-4-4-4-4-4-4-4-4-4-4-4-4-3-3--------------------|
                                                                              
продолжение...
E--------------------------------------|
B--------------------------------------|
G--------------------------------------|
D-6-6-6-6-6-6-6-5-6-6-6-6-6-6-6-6-5-5--|
A-6-6-6-6-6-6-6-5-6-6-6-6-6-6-6-6-5-5--|
E-4-4-4-4-4-4-4-3-4-4-4-4-4-4-4-4-3-3--|
                                                                              

это играется после 2раза "some of them want to be abused..."
E---------------------------------------------------------|
B----------------------------------6^---------------------|
G-5-3-5-7^-5-3-5-7^-5-3-5-7^-5-3-5----5-3-5-7^-5-3-5-7^-5-|
D---------------------------------------------------------|
A---------------------------------------------------------|
E---------------------------------------------------------|
                                                                              
Solo--> "wah-wah":(после "Mov-in on!!...")
E-------11------8^---8^------------------------------------------------|
B-11-13----11--11---11----8^---------------------------------3h4-------|
G------------------------11----5-3-5-0^---0^---0^----5--3--5--------5--|
D------------------------------------4--4-4--4-4--4--------------3^----|
A----------------------------------------------------------------------|
E----------------------------------------------------------------------|
                                                                              

E---------------------------------------------14^-----|
B---3-3-4^----------7^-------13^--------16-16-16--13--|
G-5-----7--7-10-10-10--10-15-15---15-15---------------|
D-----------------------------------------------------|
A-----------------------------------------------------|
E-----------------------------------------------------|

в конце:
("...I got-ta know what´s in -- side -- you.")
E--------------------------------------------|
B--------------------------------------------|
G-----------------------------------------5--|
D---------------------------6-----5-------5--|
A---------------------------6-----5-------3--|
E---------------------------4-----3----------|
 
 

Видео