Маша и Медведи - Без тебя, аккорды

Прокрутка
Тональность
Шрифт
100
Вступление:

   E5                F5                E5                F5
e------------------------|
H------------------------|
G------------------------|
D|---------4---------5---|---------4---------2---|
A------|---------3-------------|---------3-------|
E|-0---------------|-----1-----------|-0---------------|-----1-----------|


   E5                F5                E5                F5
e------------------------|
H------------------------|
G------------------------|
D|---------4---------5---|---------4-------|---------2-------|
A------|---------3-------------|-----3-------3---|
E|-0---------------|-----1-----------|-0-----------0---|-1---------------|




Куплет:

   E5                F5                E5                F5
e------------------------|
H------------------------|
G------------------------|
D|-2---------------|---------2h3-2---------|-----2---3---0---|
A|-2---------------|-------3-------3-------|-3---------------|
E|-0---------------|-1---------------|-0---------------|-1---------------|
Что-то внутри  как у стай  соединяет   нас

   E5                F5                E5                F5
e--------------------0---|
H------------------------|
G------------------|-------3-4h5---5-|
D------|---------2h3-2---------------|
A|-2---------------|-------3-------3-------------|
E|-0---------------|-1---------------|-0---------------|-1---------------|
Прости, прости,  с собой возьми  глоток моих    фраз

   E5                F5                E5                F5
e------------------------|
H------------------------|
G------------------------|
D|-2---------------|---------2h3-2---------|-----2---3---0---|
A|-2---------------|-------3-------3-------|-3---------------|
E|-0---------------|-1---------------|-0---------------|-1---------------|
Широким морем я буду плыть по дальним странам колесить

   E5                F5                E5                F5
e------------------------|
H------------------------|
G------------------------
D------|---------2h3-2---------|-3---------------|
A------|-------3-------3-------|-3---------------|
E|-0---------------|-1---------------|-0---------------|-1---------------|
Поймаю ветер, с ним полечу чтоб на тебя надеть любовь-парчу


Припев:

    Em(VII)      C(III)     Em(VII)         C(III)
Мое сердце без тебя, словно дикая птица без неба.
      Em(VII)  C(III)     Em(VII)         C(III)
Без тебя моя душа, словно слабая лань без леса.
      G(III)    C(III)    D(V)            Em(VII)
Без тебя мои глаза, как налитые груди без чада.
      Em(VII)   C(III)
Без тебя моя слеза, как роса без утра падает.

Проигрыш между припевом и куплетом: Em*(VII) C*(VIII)


    Em(VII)           C(III)           D(V)
e|-0-|---|---|   e|-0-|---|---|   e|-0-|---|---|
H|-0-|-0-|---|   H|-0-|---|-0-|   H|-0-|---|-0-|
G|-0-|---|-0-|   G|-0-|---|-0-|   G|-0-|---|-0-|
D|-0-|---|-0-|   D|-0-|---|-0-|   D|-0-|---|-0-|
A|-0-|---|---|   A|-0-|---|---|   A|-0-|---|---|
E|-0-|---|---|   E|-0-|---|---|   E|-0-|---|---|
  VII     IX       III      V        V      VII

     G(III)            E5               F5
e|-0-|---|---|   ex---|---|---|   ex---|---|---|
H|-0-|---|---|   Hx---|---|---|   Hx---|---|---|
G|-0-|-0-|---|   Gx---|---|---|   Gx---|---|---|
D|-0-|---|-0-|   D|---|-0-|---|   D|---|---|-0-|
A|-0-|---|-0-|   A|---|-0-|---|   A|---|---|-0-|
E|-0-|---|---|   E|---|---|---|   E|-0-|---|---|
                    I      III       I      III

    Em*(VII)         C*(VIII)
e|-0-|---|---|   ex---|---|---|
H|---|-0-|---|   H|-0-|---|---|
G|---|---|-0-|   G|---|-0-|---|
D|---|---|-0-|   D|---|---|-0-|
Ax---|---|---|   A|---|---|-0-|
Ex---|---|---|   Ex---|---|---|
  VII     IX       VIII     X


Знаю где ты, знаю где я, лишь километры между нами
Только шепни - я подхвачу, песню свою тебе шепчу

     Мое сердце без тебя словно дикая птица без неба
     Без тебя моя душа словно слабая лань без леса
     Без тебя мои глаза, как налитые груди без чада
     Без тебя моя слеза, как роса без утра падает...
     Мое сердце без тебя словно дикая птица без неба
     Без тебя моя душа словно слабая лань без леса
     Без тебя мои глаза, как налитые груди без чада
     Без тебя моя слеза, как роса без утра падает...
 
 

Видео