Многоточие - В жизни так бывает, аккорды

Прокрутка
Тональность
Шрифт
100
Вступление:

    Em7                     C9
e||-----------------------|---------------------|
H||-----------------------|---------------------|
G||------4--4--4----7--7--|----5----------5--4--|
D||-----------------------|---------------------|
A||-----------------------|---------------------|
E||-----------------------|---------------------|
                                           
  Dsus2 - D              Em7 - Em              подтяжка на полтона
|----------------------|----------------------------|
|----------------------|----------------------------|
|----------------------|--------------------4--4b^r-|
|--7----------9--7--5--|--------------5--7----------|
|----------------------|--5--7--5--7----------------|
|----------------------|----------------------------|

         Em7
Зачем я помню те дни, когда с тобой мы окунались
        C9
В море солнечной любви, когда мы чувствами не игрались
       Dsus2                D
Это было как в сказке, вся жизнь перед глазами
    Em7                     Em
Казалось была заполнена несбывшимися мечтами

А ты сидела рядом, меня гладила рукою
И тихо говорила - я всегда буду с тобою,
И тебе почему-то я верил, хотя знал, что все проходит,
Но влюбленные глаза не видят того, что происходит.

Обманутые счастьем так боятся его потерять,
Что в тряске над ней перестают его ощущать,
И вскоре я сидел один на краешке надежды
С мечтами о том, что может будет все, как прежде.

Но ужасающая реальность мою остудила кровь,
И казалось навеки я забыл, что значит любовь,
А-а, что значит любовь...

Em7               С9         Dsus2 D        Em  Em7
   В жизни так бывает, что любовь приходит вновь                
   Только... Пламя догорает и не бьется в венах кровь / 2 раза

Да, так бывает, любовь умирает,
Но вроде бы манит опять, манит,
И непонятно куда же ушло все тепло,
Холод в глазах, ветер в словах.

Страх перед болью от старых потерь,
Откровенной любви захлопнута дверь,
И теперь, когда в сердце нет больше огня
Теряется смысл каждого дня.

Брошенных слов от лживых ветров,
Теряющих доверие к теплу нежных слов,
И голос - он вроде бы и милый и родной,
Почему нет любви? Ответ простой...

Припев > 2 раза

Комментарий автора:

Боем лучше играть упрощенный аккомпанемент: Em C D Em
 
 
Свернуть Распечатать

Видео