Ногу Свело - Наши юные смешные голоса, аккорды

Прокрутка
Тональность
Шрифт
100
В песне много интересных фишек, поэтому ограничимся только интро:))

Intro:

1|---0---------------------------------------------------|
2|-------3-1-0-------------------------------------------|
3--2-----------------------------------------|
4------5---3-2-0-----------------------------|
5|-0---0---------3---3-------3---5---3-2-0-----3---2-0---|
6------------------3---3-------3-0---0-----4-|

1|---0-----------------------------------------------------|
2|-------3-1-0---------------------------------------------|
3--2-------------------------------------------|
4------5---3-2-0---------5-----5---5-----5-----|
5|-0---0---------3---3-------3---5-----5---------5-----5---|
6------------------3---3-----3---3-----3-----4-|


 Am          C           G    Em
В комнате искусственного света
 Am          C           G
Мы лежим на кафельном столе
И в лучах искусственного лета
Раны застывают как желе

Припев:

 Am            C            G         Em
Люди больше не услышат наши юные смешные голоса
 Am            C            G
Теперь их слышат только небеса
Люди никогда не вспомнят наши звонкие смешные имена
Теперь их помнит только тишина

Злой маньяк гуляет на свободе
Чтобы жертву новую найти
Он решает что сегодня в моде
Странника последнего пути

Припев

Ляжем как продукты в холодильник
И обнявшись нежно там уснем
На прощанье нам споет светильник
Улыбнется кварцевым огнем

Припев