Песни из кино и мультфильмов - Музыка из к/ф "Крестный отец", аккорды

Прокрутка
Тональность
Шрифт
100
1)-----0-5-8---]-7-5-8-5-]-7-5-1-3-]-0--------]-----0-5-8-]
2)-------------]-5-------]-6-------]----1-1-1-]-----------]
3)-------------]-5-------]-7-------]----2-2-2-]-----------]
4)-------------]---------]-0-------]----------]-----------]
5)--0----------]-0-------]---------]----------]--0--------]
6)-------------]---------]---------]-0--------]-----------]

1)-7-5-8-5-]-7-5-----]----------]-------5-]-7--------]
2)-5-------]-6---5-4-]-3--------]-----6---]----6-6-6-]
3)-5-------]-7-------]----2-2-2-]---7-----]----7-7-7-]
4)---------]-0-------]----2-2-2-]-0-------]-0--------]
5)-0-------]---------]----------]---------]----------]
6)---------]---------]-1--------]---------]----------]

1)--------4-]-5--------]--------1-]-1-0-3-1-]-1-0-----]
2)------6---]----5-5-5-]------1---]---------]-----0-1-]
3)----7-----]----5-5-5-]----2-----]---------]---------]
4)----------]----------]----------]---------]---------]
5)----------]-0--------]-0--------]-0-------]---------]
6)-0--------]----------]----------]---------]-0-------]

1)---------]-----7-7-6-]-5-----7-]-7-5-3-1-]-0-------]
2)-------1-]-----------]---0-0---]-0-------]---1-1-1-]
3)-2---2---]-----------]---0-0---]-0-------]---------]
4)---2-----]-----------]---------]-0-------]---------]
5)-o-------]-0---------]---------]---------]-3-------]
6)---------]-----------]-3-------]---------]---------]

1)----0-3-0-]---------]-----1---]---------]-0-]-
2)----------]-3-------]---3---3-]-0-------]-0-]-
3)----------]---2-2-2-]---------]---1-1-1-]-1-]-
4)----------]---3-3-3-]-0-------]---2-2-2-]-2-]-
5)-3--------]---------]---------]---------]-2-]-
6)----------]-1-------]---------]-0-------]-0-]-

 
 
Свернуть Распечатать