Сплин - Двое не спят, аккорды

Прокрутка
Тональность
Шрифт
100
Intro:

   Am
E|---------------0------------------|
H|-------0h1-----------0------------|
G|-----2-------2-----2-----2--------| x3
D|---2-------2-----2-----2----------|
A|-0--------------------------------|
E|----------------------------------|

   Am
E|---------------0------------------|
H|-------0h1------------------------|
G|-----2-------2--------------------|
D|---2-------2----------------------|
A|-0--------------------------------|
E|----------------------------------|


Куплет:

   Am             Em/D         Am       
E|-------------------------------------------0-------------|
H|-------0h1------------3------------0h1-----------0-------|
G|-----2-------2------0-----0------2-------2-----2-----2---|
D|---2-------2------2-----2------2-------2-----2-----2-----|
A|-0--------------2------------0---------------------------|
E|---------------------------------------------------------|

   C              G            C              A7
E|---------------------------------------------------------|
H|-------0h1------------3------------0h1------------2------|
G|-----0-------0------0-----0------0-------0------0-----0--|
D|---2-------2------0-----0------2-------2------2-----2----|
A|-3--------------2------------3--------------0------------|
E|---------------------------------------------------------|

   Dm             G            C      Em/D   Am
E|-------0h1------------3----------------------------------|
H|-----3-------3------3-----3----------------------0h1-----|
G|---2-------2------0-----0--------0------0------2-------2-|
D|-0-----------------------------2------2------2-------2---|
A|----------------2------------3------2------0-------------|
E|---------------------------------------------------------|

   Dm             E            Am            A7 
E|-------0h1------------0----------------------------------|
H|-----3-------3------0-----0--------0h1-----------2-------|
G|---2-------2------1-----1--------2-------2-----0-----0---|
D|-0-----------------------------2-------2-----2-----2-----|
A|----------------2------------0-------------0-------------|
E|---------------------------------------------------------|

   Dm             G            C      Em/D   Am
E|-------0h1------------3----------------------------------|
H|-----3-------3------3-----3----------------------0h1-----|
G|---2-------2------0-----0--------0------0------2-------2-|
D|-0-----------------------------2------2------2-------2---|
A|----------------2------------3------2------0-------------|
E|---------------------------------------------------------|

   Dm             E            Am             (везде, кроме 1 куплета)
E|-------0h1------------0--------------------0-|---------------------|
H|-----3-------3------0-----0--------0h1-------|-----0---------------|
G|---2-------2------1-----1--------2-------2---|---2-----2-----------|
D|-0-----------------------------2-------2-----|-2-----2-------------|
A|----------------2------------0---------------|---------------------|
E|---------------------------------------------|---------------------|


       Am     Em/D        Am 
 Лестница здесь, девять шагов до заветной двери,
       C               G               C      A7 
 А за дверями в русская печь и гость на постой.
       Dm    G          C     Em/D   Am
 Двое не спят, двое глотают колеса любви,
       Dm  E          Am                A7 
 Им хорошо, станем ли мы нарушать их покой?
       Dm    G          C     Em/D   Am
 Двое не спят, двое глотают колеса любви,
       Dm  E          Am                A7 
 Им хорошо, станем ли мы нарушать их покой?.. 

 Час на часах, ночь, как змея поползла по земле,
 У фонаря смерть наклонилась над новой строкой.
 А двое не спят, двое сидят у любви на игле,
 Им хорошо, станем ли мы нарушать их покой?
 А двое не спят, двое сидят у любви на игле,
 Им хорошо, станем ли мы нарушать их покой?..
 
 Нечего ждать, некому верить, икона в крови,
 У штаба полка в глыбу из льда вмерз часовой.
 А двое не спят, двое дымят папиросы любви,
 Им хорошо, станем ли мы нарушать их покой?
 Двое не спят, двое дымят папиросы любви,
 Им хорошо, станем ли мы нарушать их покой?..
 
 Если б я знал, как это трудно - уснуть одному,
 Если б я знал, что меня ждет, я бы прыгнул в окно.
 А так - все идет, скучно в Москве и дождливо в Крыму
 И все хорошо, и эти двое уснули давно...
 А так - все идет, скучно в Москве и дождливо в Крыму
 И все хорошо, и эти двое уснули давно...


Outro:
   Asus                         Am
E|-------0-----0-----0--------------------0-|
H|-----3-----3-----3-----3--------0h1-------|
G|---2-----2-----2-----2--------2-------2---|
D|-2--------------------------2-------2-----|
A|--------------------------0---------------|
E|------------------------------------------|

Em/D [0 2 2 0 3 0] 

Asus [0 0 2 2 3 0] 


 
 
Свернуть Распечатать

Видео